YOU'D BE SO NICE TO COME HOME TO
As recorded by Jim Hall

Transcribed by Monte Moore
Music by Cole Porter


guitarjazztabs.com

  Q=150
           Gm7             Am7b5   D7        Gm7     D7        Gm7
 4/4
  Gtr I
  E q  q    H.      E  E    +H     E E Q      Q.   E +Q   Q     H   E E Q
|--------|---------------|----------------|------------------|---------------|
|---8-10-|-11---------10-|-(10)------8S7--|--10----8-(8)-----|---------------|
|-7------|---------------|----------------|---------------7--|--------6S7----|
|--------|---------------|----------------|------------------|---------------|
|--------|---------------|----------------|------------------|---------------|
|--------|---------------|----------------|------------------|---------------|


  Fm7            Bb7                    Ebmaj7
   H.      E E   +Q   E  E +Q     E E   E E  Q  q  Q      H     q  q
|--------------|----------------------|---------------|--------------|
|-/8---------6-|-(6)------------------|---------------|--------------|
|--------------|--------/7-(7)------7s|=5-------------|---------5--7-|
|--------------|------------------8---|---5-----8-----|--------------|
|--------------|----------------------|---------------|--------------|
|--------------|----------------------|---------------|--------------|


  Am7b5         D7              Am7b5D7b9      Gm   Gm/F
                     |--3---|
  H.      E E   H    Q  Q   Q   H     Q.   E    H   E  Q.
|-------------|---------------|-8------------|-------------|
|-------------|---------8--10-|------10---11-|--------10/--|
|-8-------6-7-|---------------|--------------|-------------|
|-------------|---------------|--------------|-------------|
|-------------|---------------|--------------|-------------|
|-------------|---------------|--------------|-------------|


  Em7b5           A7b9
   Q.    E  H      E      +E   +H       E  E
|-------15------|----------------------------|
|-15------------|-13pb14r(13)-(13)-----11s10-|
|---------------|----------------------------|
|---------------|----------------------------|
|---------------|----------------------------|
|---------------|----------------------------|


  Am7b5                 D7
   +Q   Q     q  E  E    H    E  E E  E
|------------------11-|------------------|
|-(10)----------------|------------8-10--|
|------------12-------|----------7-------|
|---------------------|------------------|
|---------------------|------------------|
|---------------------|------------------|


  Gm7          Am7b5  D7      Gm7     D7     Gm7
   H.     Q     H.      E E    q  E E  H     Q  E E E E  E E
|------------|--------------|--------------|------------------|
|-11---------|-10-------8s7-|-10--8--------|---------------7/-|
|------------|--------------|-------7------|--------7-8-10----|
|------------|--------------|--------------|------8-----------|
|------------|--------------|--------------|------------------|
|------------|--------------|--------------|------------------|


  Fm7              Bb7                   Eb6
  E  E E  E  H     E   E  +Q   Q   E E   E E  E  E  H      H    Q   Q
|----------------|---------------------|----------------|-------------|
|-8-11-----------|---------------------|----------------|----------/8-|
|--------10s12---|---/10-(10)--7-------|-7--------------|-------------|
|----------------|-------------------8-|---8-10-10------|-------------|
|----------------|----------------10---|----------------|-------------|
|----------------|---------------------|----------------|-------------|


  C#7             Bb/D       F#7               Gm7
  +H    E E E  E       W      Q  E  E Q   E  E    +Q  Q   Q  Q
|----------------|----------|---------8--------|----------8--9--|
|-(8)-----8------|----------|------10----10-11-|-(11)-----------|
|-------9-----10-|----------|------------------|----------------|
|----------------|----------|------------------|----------------|
|----------------|----------|------------------|----------------|
|----------------|----------|------------------|----------------|


  C7     Gb7       C7b9
   H.       E  E    +E  E +Q    E E +Q
|-10-------------|------9-(9)-----8-(8)--|
|----------------|-----------------------|
|----------------|-----------------------|
|----------12S11-|-(11)--------10--------|
|----------------|-----------------------|
|----------------|-----------------------|


  Bb6              Am7b5     D7b9
  E E +Q   q  q    E E +Q    q  E E
|---5-(5)--------|--------------------||
|----------8-----|---6-(6)------3-----||
|-------------7--|-5---------2--------||
|-7--------------|----------------2---||
|----------------|--------------------||
|----------------|--------------------||


  Gm7         Am7b5   D7        Gm7    D7    Gm7
  +W          E E E E E E E E   Q  E E  H    Q  E E Q  E E
|-----------|-----------------|------------|----------------|
|-----------|-----------------|------------|----------------|
|-----------|---------------7-|------------|----------------|
|-(2)-------|---4---5-7S8-----|-7--4-5-----|------8----8----|
|-----------|-----------------|------------|--------8----6--|
|-----------|-----------------|------------|----------------|


  Fm7                   Bb7
  +Q   E E +Q   E   E    +Q    E  E  +Q    E E
|---------------------|------------------------|
|---------------------|------------------------|
|---------------------|------------------------|
|------6--------8-----|-------10----------12---|
|-(6)----8-(8)----/11-|-(11)-----10-(10)-----8-|
|---------------------|------------------------|


  Ebmaj7
  +Q   E  E  +Q    E E   +H    E  E  E E
|----------------------|-----------------|
|----------------------|-----------------|
|----------------------|-----------------|
|------8---------------|-----------------|
|-(8)-------------10---|---------------8-|
|--------10-(10)-----8-|-(8)---8-10-11---|


  Am7b5              D7                 Am7b5   D7        Gm7     Gm/F
    Q  E E +Q   Q    Q  E  E  +Q   Q    E E E E E E E E   E E E E E E E E
|------------------|------------------|-----------------|-------5----------|
|------------------|------------------|-----------------|-5-6-8---6--------|
|------------------|------------------|---------5-----7-|-----------7------|
|------8-----------|------------------|-----5-7---7-8---|-------------8-5--|
|------------------|------10-(10)-----|---5-------------|------------------|
|-/10----9-(9)-----|----8-------------|-----------------|------------------|


  Em7b5      A7b9                 Am7b5            D7
    W        E E E E E E S  S E   E E  E  E Q Q       W
|----------|--------------------|-8-9-10-11-8----|---------|
|----------|------------------9-|----------------|---------|
|----------|---8-7---6-7-9S10---|----------------|---------|
|----------|-------8------------|----------------|---------|
|----------|--------------------|----------------|---------|
|----------|--------------------|----------------|---------|


  Gm7             Am7b5   D7      Gm7   D7      Gm7
   q   Q   H       Q   Q  Q  Q    Q  Q  Q  Q    Q  Q  Q  Q
|-10------------|---------------|-------------|------------|
|-----11--------|-10---------8--|----7-----5--|----3-------|
|---------------|---------------|-------------|------------|
|---------12----|-----10S=8-----|-7-----5-----|-3-----2--1-|
|---------------|---------------|-------------|------------|
|---------------|---------------|-------------|------------|


  Fm7           Bb7               Eb6
   H   E E Q    Q   E  E Q  E E    H    E E E E   Q E E +E  E E E
|-------------|-----------------|---------------|------------------|
|-------------|-----------------|---------------|-6----------------|
|-------------|---------------7-|-------5-8-7-5-|---8--------------|
|--------8----|-------10----8---|---------------|-----8-(8)-5------|
|------8------|----10-----------|---------------|-------------8-6--|
|-------------|-----------------|---------------|------------------|


  C#7            Bb/D           F#7           Gm7
  E E Q  Q  E E   Q  Q  E E Q    Q  E E Q  Q    E E Q  E  E  +E   E
|---------------|--------------|--------------|----------------------|
|---------------|--------------|------7-------|---8--------------11--|
|-------------5-|---------7----|----8---------|-9------9S10-(10)-----|
|---5-------7---|-------8------|--------------|----------------------|
|-7-------------|--------------|--------------|----------------------|
|---------------|--------------|--------------|----------------------|


  C7   Gb7         C7b9               Bb6                Am7b5
  H    E E  E  E    E  E Q  Q  E  E    E  E Q E  E  Q    Q  E  E  E  E  q
|----------------|-10S11---------10-|------------------|-------------------||
|-------------11-|------------------|-11--------13-----|------10-----------||
|--------9-10----|------------------|----12--------10--|---------10--------||
|----------------|------------------|------------------|------------12-----||
|----------------|------------------|------------------|---------------12--||
|----------------|------------------|------------------|-------------------||


  Gm7               Am7b5    D7
                       |-3-|
  E  E E E H      E  E E E E E S S E  E
|---------------|-----------------------|
|---10-6--------|---10-6-----8-6-----10-|
|--------7------|--------7-------7------|
|---------------|----------8-------8----|
|---------------|-----------------------|
|---------------|-----------------------|


  Gm7         D7            Gm7
  |-3-|       |-3-|              |-3-|
  E E E  E  E E E E E S S   E  E E E E  E S S E E
|-------------------------|------------------------|
|-6-----10-10-6-----8-6---|---10-6-----10-6-----8--|
|---7-----------7-------7-|--------7--------7------|
|-----8-----------8-------|-8--------8--------8----|
|-------------------------|------------------------|
|-------------------------|------------------------|


  Fm7                     Bb7             Ebmaj7
  |-3-|     |-3-|
  E E E E E E E E E S S   E E Q E E E E   E E Q  E E E E   E E E E E E E E
|-----------------------|-----------6-8-|----------------|------------------|
|-4-----8-8-4-----8-4---|---8---8S9-----|-7S8------------|------------------|
|---5---------5-------5-|-----8---------|--------7---5-7-|---5--------------|
|-----6---------6-------|-6-------------|----------8-----|-8---5-8---8---8--|
|-----------------------|---------------|----------------|---------8---6----|
|-----------------------|---------------|----------------|------------------|


  Am7b5           D7                Am7b5   D7         Gm   Gm/F
  E E Q  Q  E E   E E E E E E E E   E E E E  E E E E      W
|---------------|-----------------|-5-6-8-9-10-6-5---|---------|
|---------------|-----------5-7-8-|----------------8-|---------|
|---------------|---4-5-7-8-------|------------------|---------|
|-------------4-|-7---------------|------------------|---------|
|-5-------------|-----------------|------------------|---------|
|---------------|-----------------|------------------|---------|


  Em7b5      A7b9                  Am7b5               D7
     W         H     Q   E     E    +H      q   E  E    E  E  E  E  Q   Q
|----------|-/15----11-----------|-------------------|--------------------|
|----------|------------13b15r13-|-(13)----11--------|--------------------|
|----------|---------------------|-------------12-12-|-10-10--------------|
|----------|---------------------|-------------------|-------12-12-----10-|
|----------|---------------------|-------------------|-------------13-----|
|----------|---------------------|-------------------|--------------------|


  Gm7                 Am7b5   D7           Gm7       D7         Gm7
   Q  E  E  +Q   Q    E  E  Q  +E   E  Q    +Q.    E E  E  Q    E E  Q   H
|-------------------|--------------------|--------------------|--------------|
|-------------------|--------------------|--------------------|--------------|
|-------------------|--------------------|--------------------|--------------|
|-12----------------|---12S11-(11)-11S10-|-(10)---10p8--------|---8----------|
|-------13-(13)-----|--------------------|-------------10-----|-8------------|
|-------------------|--------------------|----------------10--|--------------|


  Fm7              Bb7            Eb6
  Q.   E E E E E   E E Q  E E Q   E E E E E E E E   E E E E E E E E
|----------------|--------------|-----------------|-----------------|
|----------------|-4-7S8--------|-----------------|-----------6-5---|
|--------------5-|----------7---|-5-7---7---------|---------7-----7-|
|--------3-5S6---|--------------|-----8---5-8---5-|-----5-8---------|
|------3---------|--------------|-------------6---|-5-8-------------|
|----------------|--------------|-----------------|-----------------|


  C#7             Bb/D           F#7            Gm7
  E E Q  E  E Q    E E Q  E E Q   E E Q  E E Q    E E E E E E E  E
|--------8-------|-6------------|---------------|------------------|
|-5-8------10----|---6----8-----|---------------|------------------|
|----------------|----------7---|-8-5------5----|-------8---9---10-|
|----------------|--------------|--------7------|-8-5--------------|
|----------------|--------------|---------------|------------------|
|----------------|--------------|---------------|------------------|


  C7    Gb7        C7b9           Bb6            Am7b5
  E E E +Q.   Q     H   E E E E   E E  E E  H    Q  E E q   q
|----------------|--------------|-6-9-10-------|---------------||
|----------------|------------6-|--------------|--------8--10--||
|---9S8-(8)------|----------7---|--------------|------7--------||
|----------------|--------8-----|--------------|---------------||
|----------------|--------------|--------------|---------------||
|----------------|--------------|--------------|---------------||


  Gm7             Am7b5   D7       Gm7     D7        Gm7
   H.      E  E    +H     E E Q     Q.   E +Q   Q     H   E E Q
|---------------|----------------|-----------------|--------------|
|-11---------10-|-(10)------8S7--|-10----8-(8)-----|--------------|
|---------------|----------------|--------------7--|--------6S7---|
|---------------|----------------|-----------------|--------------|
|---------------|----------------|-----------------|--------------|
|---------------|----------------|-----------------|--------------|


  Fm7            Bb7                  Ebmaj7
   H.      E E   +Q   E  E +Q   E E   E E Q  q  Q     H   q  q
|--------------|--------------------|--------------|-------------|
|-/8---------6-|-(6)----------------|--------------|-------------|
|--------------|--------/7-(7)----7s|=5------------|------5--7---|
|--------------|----------------8---|---5----8-----|-------------|
|--------------|--------------------|--------------|-------------|
|--------------|--------------------|--------------|-------------|


  Am7b5         D7            Am7b5D7         Gm   Gm/F
                     |-3--|
  H.      E E   H    Q Q  Q   H     Q.    E    H   E  Q.
|-------------|-------------|-8-------------|--------------|
|-------------|--------8-10-|------10----11-|--------10/---|
|-8-------6-7-|-------------|---------------|--------------|
|-------------|-------------|---------------|--------------|
|-------------|-------------|---------------|--------------|
|-------------|-------------|---------------|--------------|


  Em7b5           A7b9
   Q.    E H       E      +E   +H      E  E
|-------15------|---------------------------|
|-15------------|-13pb14r(13)-(13)----11s10-|
|---------------|---------------------------|
|---------------|---------------------------|
|---------------|---------------------------|
|---------------|---------------------------|


  Am7b5               D7
   +Q   Q   q  E  E    H   E E E  E
|----------------11-|----------------|
|-(10)--------------|----------8-10--|
|----------12-------|--------7-------|
|-------------------|----------------|
|-------------------|----------------|
|-------------------|----------------|


  Gm7           Am7b5  D7      Gm7     D7     Gm7
   H.      Q     H.      E E    q  E E H      Q  E E E E  E E
|-------------|--------------|--------------|-------------------|
|-11----------|-10-------8s7-|-10--8--------|---------------7/--|
|-------------|--------------|-------7------|--------7-8-10-----|
|-------------|--------------|--------------|------8------------|
|-------------|--------------|--------------|-------------------|
|-------------|--------------|--------------|-------------------|


  Fm7               Bb7                   Eb6
  E  E E  E  H      E   E  +Q   Q   E E   E E  E  E H      H    Q   Q
|-----------------|---------------------|----------------|--------------|
|-8-11------------|---------------------|----------------|---------/8---|
|--------10s12----|---/10-(10)--7-------|-7--------------|--------------|
|-----------------|-------------------8-|---8-10-10------|--------------|
|-----------------|----------------10---|----------------|--------------|
|-----------------|---------------------|----------------|--------------|


  C#7            Bb/D       F#7               Gm7
  H    E E E  E   W          Q  E  E Q   E  E    +Q   Q  Q  Q
|---------------|----------|---------8--------|----------8--9---|
|-8------8------|----------|------10----10-11-|-(11)------------|
|------9-----10-|----------|------------------|-----------------|
|---------------|----------|------------------|-----------------|
|---------------|----------|------------------|-----------------|
|---------------|----------|------------------|-----------------|


  C7     Gb7       C7b9                    Bb6              Am7b5
   H.       E  E    +E  E +Q    E E +Q     E E +Q   q  q    E E +Q   q  E E
|-10-------------|------9-(9)-----8-(8)--|---5-(5)--------|------------------||
|----------------|-----------------------|----------8-----|---6-(6)-----3----||
|----------------|-----------------------|-------------7--|-5--------2-------||
|----------12S11-|-(11)--------10--------|-7--------------|---------------2--||
|----------------|-----------------------|----------------|------------------||
|----------------|-----------------------|----------------|------------------||


  Gm7
   +H          H          q   E  E  +H
|---------------------|---5------5--(5)----||
|---------------------|---5------5--(5)----||
|---------------------|---3------3--(3)----||
|--(2)----------------|---5------5--(5)----||
|---------------------|--------------------||
|---------------------|--------------------||



Duration Legend
---------------
W - whole; H - half; Q - quarter; E - 8th; S - 16th; T - 32nd; X - 64th; a - acciaccatura
+ - note tied to previous; . - note dotted; .. - note double dotted
Uncapitalized letters represent notes that are staccato (1/2 duration)
Irregular groupings are notated above the duration line
Duration letters will always appear directly above the note/fret number it represents the
duration for.  Duration letters with no fret number below them represent rests.  Multi-
bar rests are notated in the form Wxn, where n is the number of bars to rest for.  Low
melody durations appear below the staff

Tablature Legend
----------------
 h   - hammer-on
 p   - pull-off
 b   - bend
 pb  - pre-bend
 r   - bend release (if no number after the r, then release immediately)
 /\  - slide into or out of (from/to "nowhere")
 s   - legato slide
 S   - shift slide
<n> - natural harmonic
[n]  - artificial harmonic
n(n) - tapped harmonic
 ~   - vibrato
 tr  - trill
 T   - tap
 TP  - trem. picking
 PM  - palm muting
\n/  - tremolo bar dip; n = amount to dip
 \n  - tremolo bar down
 n/  - tremolo bar up
/n\  - tremolo bar inverted dip
 =   - hold bend; also acts as connecting device for hammers/pulls
 <> - volume swell (louder/softer)
 x   - on rhythm slash represents muted slash
 o   - on rhythm slash represents single note slash

Misc Legend
-----------
 |  - bar
||  - double bar
||o - repeat start
o|| - repeat end
*|  - double bar (ending)
 :  - bar (freetime)
 $  - Segno
 &  - Coda
Tempo markers - <E/E./Q/Q./H/H.> = BPM(8/16=s8/s16), where s8 = swing 8ths, s16 = swing 16ths


** Generated using Power Tab Editor by Brad Larsen: The Official Power Tab Web Site