Jazz Blues (Route 66, Billie's Bounce)





Gtr I (E A D G)

  Bb7           Eb7           Bb7
 4/4

|-------------|-------------|-------------|------------|
|-------------|----5--6--8--|-------------|----5--6--8-|
|----5--6--8--|-6-----------|----5--6--7--|-8----------|
|-6-----------|-------------|-6-----------|------------|


  Eb7           E7           Bb7           G7+9

|-------------|-------------|-------------|------------|
|----5--8-----|----5--8--7--|-8--7--6--5--|------------|
|-6--------6--|-7-----------|-------------|-8--7--6--5-|
|-------------|-------------|-------------|------------|


  Cm7           F7            Bb7   G7+9     Cm7   F7

|-------------|-------------|--------------|-------------||
|-------------|-------------|--------------|------------o||
|----5--6--7--|-8--6--5-----|----9--10-----|----7--8----o||
|-8-----------|----------8--|-6---------9--|-8--------7--||






** Generated using Power Tab Editor by Brad Larsen: The Official Power Tab Web Site